ISO-10303-21;
HEADER;
FILE_DESCRIPTION (( 'STEP AP203' ),
    '1' );
FILE_NAME ('Q-OZHWP-R2-12.7-852-M.STEP',
    '2020-12-22T09:14:59',
    ( '' ),
    ( '' ),
    'SwSTEP 2.0',
    'SolidWorks 2020',
    '' );
FILE_SCHEMA (( 'CONFIG_CONTROL_DESIGN' ));
ENDSEC;

DATA;
#1 = CARTESIAN_POINT ( 'NONE',  ( -1.614212418857619014, 0.000000000000000000, 0.000000000000000000 ) ) ;
#2 = DIRECTION ( 'NONE',  ( 0.000000000000000000, 0.000000000000000000, 1.000000000000000000 ) ) ;
#3 = SECURITY_CLASSIFICATION_LEVEL ( 'unclassified' ) ;
#4 = CYLINDRICAL_SURFACE ( 'NONE', #132, 6.349999999999999645 ) ;
#5 = AXIS2_PLACEMENT_3D ( 'NONE', #6, #287, #103 ) ;
#6 = CARTESIAN_POINT ( 'NONE',  ( -1.500000000000000444, 0.000000000000000000, 0.000000000000000000 ) ) ;
#7 = FACE_OUTER_BOUND ( 'NONE', #134, .T. ) ;
#8 = PRODUCT_DEFINITION_SHAPE ( 'NONE', 'NONE',  #309 ) ;
#9 = AXIS2_PLACEMENT_3D ( 'NONE', #86, #277, #254 ) ;
#10 = PLANE ( 'NONE',  #320 ) ;
#11 = CIRCLE ( 'NONE', #82, 6.349999999999999645 ) ;
#12 = FACE_OUTER_BOUND ( 'NONE', #144, .T. ) ;
#13 = DIRECTION ( 'NONE',  ( 0.000000000000000000, 0.000000000000000000, 1.000000000000000000 ) ) ;
#14 = CC_DESIGN_PERSON_AND_ORGANIZATION_ASSIGNMENT ( #313, #184, ( #121 ) ) ;
#15 = ORIENTED_EDGE ( 'NONE', *, *, #24, .F. ) ;
#16 = ORIENTED_EDGE ( 'NONE', *, *, #223, .F. ) ;
#17 = ORIENTED_EDGE ( 'NONE', *, *, #133, .T. ) ;
#18 = DIRECTION ( 'NONE',  ( -1.000000000000000000, -0.000000000000000000, -0.000000000000000000 ) ) ;
#19 = EDGE_CURVE ( 'NONE', #115, #292, #107, .T. ) ;
#20 = VERTEX_POINT ( 'NONE', #332 ) ;
#21 = CARTESIAN_POINT ( 'NONE',  ( -1.614212418857619014, 0.000000000000000000, 0.000000000000000000 ) ) ;
#22 = LOCAL_TIME ( 17, 14, 59.00000000000000000, #282 ) ;
#23 = FACE_OUTER_BOUND ( 'NONE', #188, .T. ) ;
#24 = EDGE_CURVE ( 'NONE', #270, #115, #117, .T. ) ;
#25 = DATE_TIME_ROLE ( 'creation_date' ) ;
#26 = DIRECTION ( 'NONE',  ( -1.000000000000000000, -0.000000000000000000, -0.000000000000000000 ) ) ;
#27 = DIRECTION ( 'NONE',  ( -1.000000000000000000, -0.000000000000000000, -0.000000000000000000 ) ) ;
#28 = AXIS2_PLACEMENT_3D ( 'NONE', #1, #312, #2 ) ;
#29 = PERSON_AND_ORGANIZATION_ROLE ( 'classification_officer' ) ;
#30 = CARTESIAN_POINT ( 'NONE',  ( -1.614212418857619014, 0.000000000000000000, 6.349999999999999645 ) ) ;
#31 = EDGE_LOOP ( 'NONE', ( #15, #199, #230, #131 ) ) ;
#32 = CIRCLE ( 'NONE', #95, 6.349999999999999645 ) ;
#33 = DIRECTION ( 'NONE',  ( 0.000000000000000000, 0.000000000000000000, 1.000000000000000000 ) ) ;
#34 = ORIENTED_EDGE ( 'NONE', *, *, #197, .F. ) ;
#35 = ADVANCED_BREP_SHAPE_REPRESENTATION ( 'Q-OZHWP-R2-12.7-852-M', ( #101, #290 ), #93 ) ;
#36 = FACE_OUTER_BOUND ( 'NONE', #57, .T. ) ;
#37 = ORIENTED_EDGE ( 'NONE', *, *, #329, .F. ) ;
#38 = EDGE_LOOP ( 'NONE', ( #330, #296, #193, #17 ) ) ;
#39 = CARTESIAN_POINT ( 'NONE',  ( 0.000000000000000000, 0.000000000000000000, 0.000000000000000000 ) ) ;
#40 = AXIS2_PLACEMENT_3D ( 'NONE', #102, #73, #185 ) ;
#41 = ORIENTED_EDGE ( 'NONE', *, *, #268, .T. ) ;
#42 = CIRCLE ( 'NONE', #54, 6.349999999999999645 ) ;
#43 = EDGE_LOOP ( 'NONE', ( #301, #249 ) ) ;
#44 = PERSON_AND_ORGANIZATION_ROLE ( 'creator' ) ;
#45 = DIRECTION ( 'NONE',  ( 1.000000000000000000, 0.000000000000000000, 0.000000000000000000 ) ) ;
#46 = PERSON_AND_ORGANIZATION ( #212, #315 ) ;
#47 = VECTOR ( 'NONE', #302, 1000.000000000000000 ) ;
#48 = CARTESIAN_POINT ( 'NONE',  ( -1.500000000000000444, 0.000000000000000000, 0.000000000000000000 ) ) ;
#49 = DIRECTION ( 'NONE',  ( -1.000000000000000000, -0.000000000000000000, -0.000000000000000000 ) ) ;
#50 = APPROVAL_DATE_TIME ( #316, #203 ) ;
#51 = DIRECTION ( 'NONE',  ( 0.000000000000000000, 0.000000000000000000, 1.000000000000000000 ) ) ;
#52 = EDGE_CURVE ( 'NONE', #169, #148, #91, .T. ) ;
#53 = CARTESIAN_POINT ( 'NONE',  ( -2.999999999999999556, 0.000000000000000000, 0.000000000000000000 ) ) ;
#54 = AXIS2_PLACEMENT_3D ( 'NONE', #53, #49, #182 ) ;
#55 = APPROVAL_PERSON_ORGANIZATION ( #262, #261, #318 ) ;
#56 = AXIS2_PLACEMENT_3D ( 'NONE', #21, #319, #155 ) ;
#57 = EDGE_LOOP ( 'NONE', ( #41, #280 ) ) ;
#58 = LOCAL_TIME ( 17, 14, 59.00000000000000000, #258 ) ;
#59 = DIRECTION ( 'NONE',  ( -1.000000000000000000, -0.000000000000000000, -0.000000000000000000 ) ) ;
#60 = VERTEX_POINT ( 'NONE', #61 ) ;
#61 = CARTESIAN_POINT ( 'NONE',  ( -2.999999999999999556, 0.000000000000000000, 6.349999999999999645 ) ) ;
#62 = CC_DESIGN_DATE_AND_TIME_ASSIGNMENT ( #124, #25, ( #309 ) ) ;
#63 =( NAMED_UNIT ( * ) PLANE_ANGLE_UNIT ( ) SI_UNIT ( $, .RADIAN. ) );
#64 = ORIENTED_EDGE ( 'NONE', *, *, #163, .T. ) ;
#65 = CALENDAR_DATE ( 2020, 22, 12 ) ;
#66 = VERTEX_POINT ( 'NONE', #202 ) ;
#67 = CARTESIAN_POINT ( 'NONE',  ( 3.000000000000000888, 0.000000000000000000, 0.000000000000000000 ) ) ;
#68 = CALENDAR_DATE ( 2020, 22, 12 ) ;
#69 = DIRECTION ( 'NONE',  ( 0.000000000000000000, 0.000000000000000000, -1.000000000000000000 ) ) ;
#70 = AXIS2_PLACEMENT_3D ( 'NONE', #135, #189, #265 ) ;
#71 = CALENDAR_DATE ( 2020, 22, 12 ) ;
#72 = AXIS2_PLACEMENT_3D ( 'NONE', #334, #94, #326 ) ;
#73 = DIRECTION ( 'NONE',  ( -1.000000000000000000, -0.000000000000000000, -0.000000000000000000 ) ) ;
#74 = APPROVAL_STATUS ( 'not_yet_approved' ) ;
#75 = CARTESIAN_POINT ( 'NONE',  ( -2.999999999999999556, 7.776507174585692163E-16, -6.349999999999999645 ) ) ;
#76 = CC_DESIGN_PERSON_AND_ORGANIZATION_ASSIGNMENT ( #242, #29, ( #221 ) ) ;
#77 = PLANE ( 'NONE',  #128 ) ;
#78 = LOCAL_TIME ( 17, 14, 59.00000000000000000, #129 ) ;
#79 = ORIENTED_EDGE ( 'NONE', *, *, #247, .F. ) ;
#80 = EDGE_CURVE ( 'NONE', #222, #148, #145, .T. ) ;
#81 = ORIENTED_EDGE ( 'NONE', *, *, #52, .T. ) ;
#82 = AXIS2_PLACEMENT_3D ( 'NONE', #328, #275, #333 ) ;
#83 = ORIENTED_EDGE ( 'NONE', *, *, #197, .T. ) ;
#84 = ADVANCED_FACE ( 'NONE', ( #300 ), #139, .T. ) ;
#85 = CYLINDRICAL_SURFACE ( 'NONE', #305, 6.349999999999999645 ) ;
#86 = CARTESIAN_POINT ( 'NONE',  ( -3.000000000000000000, 0.000000000000000000, 0.000000000000000000 ) ) ;
#87 = AXIS2_PLACEMENT_3D ( 'NONE', #257, #260, #220 ) ;
#88 = EDGE_LOOP ( 'NONE', ( #137, #171 ) ) ;
#89 = CARTESIAN_POINT ( 'NONE',  ( -1.500000000000000444, 0.000000000000000000, 6.349999999999999645 ) ) ;
#90 = CARTESIAN_POINT ( 'NONE',  ( -1.614212418857619014, 1.555301434917138433E-15, -12.69999999999999929 ) ) ;
#91 = LINE ( 'NONE', #120, #47 ) ;
#92 = DIRECTION ( 'NONE',  ( 0.000000000000000000, 0.000000000000000000, 1.000000000000000000 ) ) ;
#93 =( GEOMETRIC_REPRESENTATION_CONTEXT ( 3 ) GLOBAL_UNCERTAINTY_ASSIGNED_CONTEXT ( ( #293 ) ) GLOBAL_UNIT_ASSIGNED_CONTEXT ( ( #205, #63, #170 ) ) REPRESENTATION_CONTEXT ( 'NONE', 'WORKASPACE' ) );
#94 = DIRECTION ( 'NONE',  ( -1.000000000000000000, -0.000000000000000000, -0.000000000000000000 ) ) ;
#95 = AXIS2_PLACEMENT_3D ( 'NONE', #228, #59, #167 ) ;
#96 = CALENDAR_DATE ( 2020, 22, 12 ) ;
#97 = DIRECTION ( 'NONE',  ( -1.000000000000000000, 0.000000000000000000, -0.000000000000000000 ) ) ;
#98 = EDGE_CURVE ( 'NONE', #169, #66, #32, .T. ) ;
#99 = CARTESIAN_POINT ( 'NONE',  ( -1.500000000000000444, 7.776507174585692163E-16, -6.349999999999999645 ) ) ;
#100 = DATE_AND_TIME ( #68, #106 ) ;
#101 = MANIFOLD_SOLID_BREP ( 'Ðý×', #207 ) ;
#102 = CARTESIAN_POINT ( 'NONE',  ( 3.000000000000000000, 0.000000000000000000, 0.000000000000000000 ) ) ;
#103 = DIRECTION ( 'NONE',  ( 0.000000000000000000, 0.000000000000000000, -1.000000000000000000 ) ) ;
#104 = APPLICATION_CONTEXT ( 'configuration controlled 3d designs of mechanical parts and assemblies' ) ;
#105 = CARTESIAN_POINT ( 'NONE',  ( -3.000000000000000000, 1.555301434917138433E-15, -12.69999999999999929 ) ) ;
#106 = LOCAL_TIME ( 17, 14, 59.00000000000000000, #208 ) ;
#107 = CIRCLE ( 'NONE', #9, 12.69999999999999929 ) ;
#108 = EDGE_CURVE ( 'NONE', #20, #292, #274, .T. ) ;
#109 = CARTESIAN_POINT ( 'NONE',  ( -1.500000000000000444, 6.349999999999999645, 0.000000000000000000 ) ) ;
#110 = AXIS2_PLACEMENT_3D ( 'NONE', #67, #179, #51 ) ;
#111 = CARTESIAN_POINT ( 'NONE',  ( -1.614212418857619014, 0.000000000000000000, 0.000000000000000000 ) ) ;
#112 = CC_DESIGN_PERSON_AND_ORGANIZATION_ASSIGNMENT ( #113, #118, ( #311 ) ) ;
#113 = PERSON_AND_ORGANIZATION ( #212, #315 ) ;
#114 = ORIENTED_EDGE ( 'NONE', *, *, #190, .T. ) ;
#115 = VERTEX_POINT ( 'NONE', #105 ) ;
#116 = ADVANCED_FACE ( 'NONE', ( #151 ), #291, .T. ) ;
#117 = LINE ( 'NONE', #90, #198 ) ;
#118 = PERSON_AND_ORGANIZATION_ROLE ( 'design_owner' ) ;
#119 = VERTEX_POINT ( 'NONE', #99 ) ;
#120 = CARTESIAN_POINT ( 'NONE',  ( -1.614212418857619014, 0.000000000000000000, 6.349999999999999645 ) ) ;
#121 = PRODUCT_DEFINITION_FORMATION_WITH_SPECIFIED_SOURCE ( 'ANY', '', #311, .NOT_KNOWN. ) ;
#122 = APPLICATION_CONTEXT ( 'configuration controlled 3d designs of mechanical parts and assemblies' ) ;
#123 = CARTESIAN_POINT ( 'NONE',  ( 1.500000000000000888, 0.000000000000000000, 6.349999999999999645 ) ) ;
#124 = DATE_AND_TIME ( #71, #78 ) ;
#125 = DIRECTION ( 'NONE',  ( -0.000000000000000000, 0.000000000000000000, 1.000000000000000000 ) ) ;
#126 = EDGE_CURVE ( 'NONE', #119, #147, #127, .T. ) ;
#127 = LINE ( 'NONE', #211, #192 ) ;
#128 = AXIS2_PLACEMENT_3D ( 'NONE', #160, #97, #237 ) ;
#129 = COORDINATED_UNIVERSAL_TIME_OFFSET ( 8, 0, .AHEAD. ) ;
#130 = DIRECTION ( 'NONE',  ( -1.000000000000000000, -0.000000000000000000, -0.000000000000000000 ) ) ;
#131 = ORIENTED_EDGE ( 'NONE', *, *, #19, .F. ) ;
#132 = AXIS2_PLACEMENT_3D ( 'NONE', #283, #157, #314 ) ;
#133 = EDGE_CURVE ( 'NONE', #60, #147, #42, .T. ) ;
#134 = EDGE_LOOP ( 'NONE', ( #79, #37 ) ) ;
#135 = CARTESIAN_POINT ( 'NONE',  ( -3.000000000000000000, 0.000000000000000000, 0.000000000000000000 ) ) ;
#136 = CC_DESIGN_PERSON_AND_ORGANIZATION_ASSIGNMENT ( #238, #44, ( #121 ) ) ;
#137 = ORIENTED_EDGE ( 'NONE', *, *, #323, .F. ) ;
#138 = FACE_OUTER_BOUND ( 'NONE', #229, .T. ) ;
#139 = CYLINDRICAL_SURFACE ( 'NONE', #72, 12.69999999999999929 ) ;
#140 = CARTESIAN_POINT ( 'NONE',  ( 3.000000000000000000, 0.000000000000000000, 0.000000000000000000 ) ) ;
#141 = ORIENTED_EDGE ( 'NONE', *, *, #108, .F. ) ;
#142 = EDGE_CURVE ( 'NONE', #119, #324, #279, .T. ) ;
#143 = EDGE_CURVE ( 'NONE', #324, #119, #307, .T. ) ;
#144 = EDGE_LOOP ( 'NONE', ( #34, #114, #308, #234 ) ) ;
#145 = CIRCLE ( 'NONE', #286, 6.349999999999999645 ) ;
#146 = FACE_BOUND ( 'NONE', #43, .T. ) ;
#147 = VERTEX_POINT ( 'NONE', #75 ) ;
#148 = VERTEX_POINT ( 'NONE', #123 ) ;
#149 = PERSON_AND_ORGANIZATION_ROLE ( 'creator' ) ;
#150 = CC_DESIGN_SECURITY_CLASSIFICATION ( #221, ( #121 ) ) ;
#151 = FACE_OUTER_BOUND ( 'NONE', #31, .T. ) ;
#152 = DESIGN_CONTEXT ( 'detailed design', #104, 'design' ) ;
#153 = FACE_BOUND ( 'NONE', #232, .T. ) ;
#154 = APPROVAL_STATUS ( 'not_yet_approved' ) ;
#155 = DIRECTION ( 'NONE',  ( 0.000000000000000000, 0.000000000000000000, 1.000000000000000000 ) ) ;
#156 = COORDINATED_UNIVERSAL_TIME_OFFSET ( 8, 0, .AHEAD. ) ;
#157 = DIRECTION ( 'NONE',  ( -1.000000000000000000, -0.000000000000000000, -0.000000000000000000 ) ) ;
#158 = AXIS2_PLACEMENT_3D ( 'NONE', #111, #226, #33 ) ;
#159 = CC_DESIGN_PERSON_AND_ORGANIZATION_ASSIGNMENT ( #335, #149, ( #309 ) ) ;
#160 = CARTESIAN_POINT ( 'NONE',  ( 1.500000000000000444, 6.349999999999999645, 0.000000000000000000 ) ) ;
#161 = ORIENTED_EDGE ( 'NONE', *, *, #24, .T. ) ;
#162 = LOCAL_TIME ( 17, 14, 59.00000000000000000, #156 ) ;
#163 = EDGE_CURVE ( 'NONE', #147, #60, #196, .T. ) ;
#164 = CYLINDRICAL_SURFACE ( 'NONE', #158, 6.349999999999999645 ) ;
#165 = ADVANCED_FACE ( 'NONE', ( #241 ), #77, .F. ) ;
#166 = APPLICATION_PROTOCOL_DEFINITION ( 'international standard', 'config_control_design', 1994, #104 ) ;
#167 = DIRECTION ( 'NONE',  ( 0.000000000000000000, 0.000000000000000000, 1.000000000000000000 ) ) ;
#168 = APPROVAL_STATUS ( 'not_yet_approved' ) ;
#169 = VERTEX_POINT ( 'NONE', #209 ) ;
#170 =( NAMED_UNIT ( * ) SI_UNIT ( $, .STERADIAN. ) SOLID_ANGLE_UNIT ( ) );
#171 = ORIENTED_EDGE ( 'NONE', *, *, #80, .F. ) ;
#172 = PERSON_AND_ORGANIZATION ( #212, #315 ) ;
#173 = DIRECTION ( 'NONE',  ( -1.000000000000000000, -0.000000000000000000, -0.000000000000000000 ) ) ;
#174 = VECTOR ( 'NONE', #26, 1000.000000000000000 ) ;
#175 = PRODUCT_RELATED_PRODUCT_CATEGORY ( 'detail', '', ( #311 ) ) ;
#176 = DATE_TIME_ROLE ( 'classification_date' ) ;
#177 = ORIENTED_EDGE ( 'NONE', *, *, #268, .F. ) ;
#178 = CALENDAR_DATE ( 2020, 22, 12 ) ;
#179 = DIRECTION ( 'NONE',  ( -1.000000000000000000, -0.000000000000000000, -0.000000000000000000 ) ) ;
#180 = APPROVAL_DATE_TIME ( #100, #244 ) ;
#181 = VECTOR ( 'NONE', #130, 1000.000000000000000 ) ;
#182 = DIRECTION ( 'NONE',  ( 0.000000000000000000, 0.000000000000000000, 1.000000000000000000 ) ) ;
#183 = ADVANCED_FACE ( 'NONE', ( #218 ), #236, .F. ) ;
#184 = PERSON_AND_ORGANIZATION_ROLE ( 'design_supplier' ) ;
#185 = DIRECTION ( 'NONE',  ( 0.000000000000000000, 0.000000000000000000, 1.000000000000000000 ) ) ;
#186 = LINE ( 'NONE', #239, #294 ) ;
#187 = CC_DESIGN_DATE_AND_TIME_ASSIGNMENT ( #213, #176, ( #221 ) ) ;
#188 = EDGE_LOOP ( 'NONE', ( #194, #248, #81, #297 ) ) ;
#189 = DIRECTION ( 'NONE',  ( -1.000000000000000000, -0.000000000000000000, -0.000000000000000000 ) ) ;
#190 = EDGE_CURVE ( 'NONE', #66, #222, #186, .T. ) ;
#191 = DIRECTION ( 'NONE',  ( 0.000000000000000000, 0.000000000000000000, -1.000000000000000000 ) ) ;
#192 = VECTOR ( 'NONE', #27, 1000.000000000000000 ) ;
#193 = ORIENTED_EDGE ( 'NONE', *, *, #223, .T. ) ;
#194 = ORIENTED_EDGE ( 'NONE', *, *, #190, .F. ) ;
#195 = DIRECTION ( 'NONE',  ( 0.000000000000000000, 0.000000000000000000, 1.000000000000000000 ) ) ;
#196 = CIRCLE ( 'NONE', #87, 6.349999999999999645 ) ;
#197 = EDGE_CURVE ( 'NONE', #66, #169, #225, .T. ) ;
#198 = VECTOR ( 'NONE', #200, 1000.000000000000000 ) ;
#199 = ORIENTED_EDGE ( 'NONE', *, *, #329, .T. ) ;
#200 = DIRECTION ( 'NONE',  ( -1.000000000000000000, -0.000000000000000000, -0.000000000000000000 ) ) ;
#201 = PLANE ( 'NONE',  #266 ) ;
#202 = CARTESIAN_POINT ( 'NONE',  ( 3.000000000000000888, 7.776507174585692163E-16, -6.349999999999999645 ) ) ;
#203 = APPROVAL ( #168, 'UNSPECIFIED' ) ;
#204 = AXIS2_PLACEMENT_3D ( 'NONE', #140, #298, #92 ) ;
#205 =( LENGTH_UNIT ( ) NAMED_UNIT ( * ) SI_UNIT ( .MILLI., .METRE. ) );
#206 = ORIENTED_EDGE ( 'NONE', *, *, #247, .T. ) ;
#207 = CLOSED_SHELL ( 'NONE', ( #84, #289, #281, #165, #215, #183, #327, #116, #245, #269 ) ) ;
#208 = COORDINATED_UNIVERSAL_TIME_OFFSET ( 8, 0, .AHEAD. ) ;
#209 = CARTESIAN_POINT ( 'NONE',  ( 3.000000000000000888, 0.000000000000000000, 6.349999999999999645 ) ) ;
#210 = APPROVAL_DATE_TIME ( #219, #261 ) ;
#211 = CARTESIAN_POINT ( 'NONE',  ( -1.614212418857619014, 7.776507174585692163E-16, -6.349999999999999645 ) ) ;
#212 = PERSON ( 'UNSPECIFIED', 'UNSPECIFIED', 'UNSPECIFIED', ('UNSPECIFIED'), ('UNSPECIFIED'), ('UNSPECIFIED') ) ;
#213 = DATE_AND_TIME ( #65, #58 ) ;
#214 = CC_DESIGN_APPROVAL ( #203, ( #309 ) ) ;
#215 = ADVANCED_FACE ( 'NONE', ( #23 ), #4, .F. ) ;
#216 = CARTESIAN_POINT ( 'NONE',  ( 3.000000000000000000, 12.69999999999999929, 0.000000000000000000 ) ) ;
#217 = SHAPE_DEFINITION_REPRESENTATION ( #8, #35 ) ;
#218 = FACE_OUTER_BOUND ( 'NONE', #38, .T. ) ;
#219 = DATE_AND_TIME ( #96, #22 ) ;
#220 = DIRECTION ( 'NONE',  ( 0.000000000000000000, 0.000000000000000000, 1.000000000000000000 ) ) ;
#221 = SECURITY_CLASSIFICATION ( '', '', #3 ) ;
#222 = VERTEX_POINT ( 'NONE', #285 ) ;
#223 = EDGE_CURVE ( 'NONE', #324, #60, #263, .T. ) ;
#224 = DIRECTION ( 'NONE',  ( 1.000000000000000000, 0.000000000000000000, 0.000000000000000000 ) ) ;
#225 = CIRCLE ( 'NONE', #110, 6.349999999999999645 ) ;
#226 = DIRECTION ( 'NONE',  ( -1.000000000000000000, -0.000000000000000000, -0.000000000000000000 ) ) ;
#227 = CARTESIAN_POINT ( 'NONE',  ( -3.000000000000000000, 6.349999999999999645, 0.000000000000000000 ) ) ;
#228 = CARTESIAN_POINT ( 'NONE',  ( 3.000000000000000888, 0.000000000000000000, 0.000000000000000000 ) ) ;
#229 = EDGE_LOOP ( 'NONE', ( #251, #322, #64, #16 ) ) ;
#230 = ORIENTED_EDGE ( 'NONE', *, *, #108, .T. ) ;
#231 = CARTESIAN_POINT ( 'NONE',  ( -3.000000000000000000, 0.000000000000000000, 12.69999999999999929 ) ) ;
#232 = EDGE_LOOP ( 'NONE', ( #253, #83 ) ) ;
#233 = CARTESIAN_POINT ( 'NONE',  ( -1.614212418857619014, 0.000000000000000000, 0.000000000000000000 ) ) ;
#234 = ORIENTED_EDGE ( 'NONE', *, *, #52, .F. ) ;
#235 = APPROVAL_PERSON_ORGANIZATION ( #172, #203, #310 ) ;
#236 = CYLINDRICAL_SURFACE ( 'NONE', #28, 6.349999999999999645 ) ;
#237 = DIRECTION ( 'NONE',  ( -0.000000000000000000, 0.000000000000000000, 1.000000000000000000 ) ) ;
#238 = PERSON_AND_ORGANIZATION ( #212, #315 ) ;
#239 = CARTESIAN_POINT ( 'NONE',  ( -1.614212418857619014, 7.776507174585692163E-16, -6.349999999999999645 ) ) ;
#240 = CIRCLE ( 'NONE', #70, 12.69999999999999929 ) ;
#241 = FACE_OUTER_BOUND ( 'NONE', #88, .T. ) ;
#242 = PERSON_AND_ORGANIZATION ( #212, #315 ) ;
#243 = CARTESIAN_POINT ( 'NONE',  ( -1.614212418857619014, 0.000000000000000000, 12.69999999999999929 ) ) ;
#244 = APPROVAL ( #74, 'UNSPECIFIED' ) ;
#245 = ADVANCED_FACE ( 'NONE', ( #7, #153 ), #317, .F. ) ;
#246 = FACE_OUTER_BOUND ( 'NONE', #276, .T. ) ;
#247 = EDGE_CURVE ( 'NONE', #20, #270, #325, .T. ) ;
#248 = ORIENTED_EDGE ( 'NONE', *, *, #98, .F. ) ;
#249 = ORIENTED_EDGE ( 'NONE', *, *, #163, .F. ) ;
#250 = CC_DESIGN_APPROVAL ( #261, ( #121 ) ) ;
#251 = ORIENTED_EDGE ( 'NONE', *, *, #143, .T. ) ;
#252 = DIRECTION ( 'NONE',  ( 0.000000000000000000, 0.000000000000000000, 1.000000000000000000 ) ) ;
#253 = ORIENTED_EDGE ( 'NONE', *, *, #98, .T. ) ;
#254 = DIRECTION ( 'NONE',  ( 0.000000000000000000, 0.000000000000000000, 1.000000000000000000 ) ) ;
#255 = APPROVAL_PERSON_ORGANIZATION ( #46, #244, #256 ) ;
#256 = APPROVAL_ROLE ( '' ) ;
#257 = CARTESIAN_POINT ( 'NONE',  ( -2.999999999999999556, 0.000000000000000000, 0.000000000000000000 ) ) ;
#258 = COORDINATED_UNIVERSAL_TIME_OFFSET ( 8, 0, .AHEAD. ) ;
#259 = DIRECTION ( 'NONE',  ( -1.000000000000000000, 0.000000000000000000, -0.000000000000000000 ) ) ;
#260 = DIRECTION ( 'NONE',  ( -1.000000000000000000, -0.000000000000000000, -0.000000000000000000 ) ) ;
#261 = APPROVAL ( #154, 'UNSPECIFIED' ) ;
#262 = PERSON_AND_ORGANIZATION ( #212, #315 ) ;
#263 = LINE ( 'NONE', #30, #181 ) ;
#264 = AXIS2_PLACEMENT_3D ( 'NONE', #48, #45, #69 ) ;
#265 = DIRECTION ( 'NONE',  ( 0.000000000000000000, 0.000000000000000000, 1.000000000000000000 ) ) ;
#266 = AXIS2_PLACEMENT_3D ( 'NONE', #227, #303, #273 ) ;
#267 = ORIENTED_EDGE ( 'NONE', *, *, #143, .F. ) ;
#268 = EDGE_CURVE ( 'NONE', #292, #115, #240, .T. ) ;
#269 = ADVANCED_FACE ( 'NONE', ( #246 ), #10, .F. ) ;
#270 = VERTEX_POINT ( 'NONE', #295 ) ;
#271 = DIRECTION ( 'NONE',  ( 1.000000000000000000, 0.000000000000000000, 0.000000000000000000 ) ) ;
#272 = ORIENTED_EDGE ( 'NONE', *, *, #142, .F. ) ;
#273 = DIRECTION ( 'NONE',  ( 0.000000000000000000, 0.000000000000000000, -1.000000000000000000 ) ) ;
#274 = LINE ( 'NONE', #243, #174 ) ;
#275 = DIRECTION ( 'NONE',  ( -1.000000000000000000, -0.000000000000000000, -0.000000000000000000 ) ) ;
#276 = EDGE_LOOP ( 'NONE', ( #267, #272 ) ) ;
#277 = DIRECTION ( 'NONE',  ( -1.000000000000000000, -0.000000000000000000, -0.000000000000000000 ) ) ;
#278 = CIRCLE ( 'NONE', #204, 12.69999999999999929 ) ;
#279 = CIRCLE ( 'NONE', #264, 6.349999999999999645 ) ;
#280 = ORIENTED_EDGE ( 'NONE', *, *, #19, .T. ) ;
#281 = ADVANCED_FACE ( 'NONE', ( #12 ), #164, .F. ) ;
#282 = COORDINATED_UNIVERSAL_TIME_OFFSET ( 8, 0, .AHEAD. ) ;
#283 = CARTESIAN_POINT ( 'NONE',  ( -1.614212418857619014, 0.000000000000000000, 0.000000000000000000 ) ) ;
#284 = AXIS2_PLACEMENT_3D ( 'NONE', #216, #259, #125 ) ;
#285 = CARTESIAN_POINT ( 'NONE',  ( 1.500000000000000888, 7.776507174585692163E-16, -6.349999999999999645 ) ) ;
#286 = AXIS2_PLACEMENT_3D ( 'NONE', #304, #173, #195 ) ;
#287 = DIRECTION ( 'NONE',  ( 1.000000000000000000, 0.000000000000000000, 0.000000000000000000 ) ) ;
#288 = DIRECTION ( 'NONE',  ( -1.000000000000000000, -0.000000000000000000, -0.000000000000000000 ) ) ;
#289 = ADVANCED_FACE ( 'NONE', ( #138 ), #85, .F. ) ;
#290 = AXIS2_PLACEMENT_3D ( 'NONE', #39, #252, #271 ) ;
#291 = CYLINDRICAL_SURFACE ( 'NONE', #56, 12.69999999999999929 ) ;
#292 = VERTEX_POINT ( 'NONE', #231 ) ;
#293 = UNCERTAINTY_MEASURE_WITH_UNIT (LENGTH_MEASURE( 1.000000000000000082E-05 ), #205, 'distance_accuracy_value', 'NONE');
#294 = VECTOR ( 'NONE', #288, 1000.000000000000000 ) ;
#295 = CARTESIAN_POINT ( 'NONE',  ( 3.000000000000000000, 1.555301434917138433E-15, -12.69999999999999929 ) ) ;
#296 = ORIENTED_EDGE ( 'NONE', *, *, #142, .T. ) ;
#297 = ORIENTED_EDGE ( 'NONE', *, *, #323, .T. ) ;
#298 = DIRECTION ( 'NONE',  ( -1.000000000000000000, -0.000000000000000000, -0.000000000000000000 ) ) ;
#299 = CC_DESIGN_APPROVAL ( #244, ( #221 ) ) ;
#300 = FACE_OUTER_BOUND ( 'NONE', #321, .T. ) ;
#301 = ORIENTED_EDGE ( 'NONE', *, *, #133, .F. ) ;
#302 = DIRECTION ( 'NONE',  ( -1.000000000000000000, -0.000000000000000000, -0.000000000000000000 ) ) ;
#303 = DIRECTION ( 'NONE',  ( 1.000000000000000000, 0.000000000000000000, 0.000000000000000000 ) ) ;
#304 = CARTESIAN_POINT ( 'NONE',  ( 1.500000000000000888, 0.000000000000000000, 0.000000000000000000 ) ) ;
#305 = AXIS2_PLACEMENT_3D ( 'NONE', #233, #18, #13 ) ;
#306 = APPLICATION_PROTOCOL_DEFINITION ( 'international standard', 'config_control_design', 1994, #122 ) ;
#307 = CIRCLE ( 'NONE', #5, 6.349999999999999645 ) ;
#308 = ORIENTED_EDGE ( 'NONE', *, *, #80, .T. ) ;
#309 = PRODUCT_DEFINITION ( 'UNKNOWN', '', #121, #152 ) ;
#310 = APPROVAL_ROLE ( '' ) ;
#311 = PRODUCT ( 'Q-OZHWP-R2-12.7-852-M', 'Q-OZHWP-R2-12.7-852-M', '', ( #331 ) ) ;
#312 = DIRECTION ( 'NONE',  ( -1.000000000000000000, -0.000000000000000000, -0.000000000000000000 ) ) ;
#313 = PERSON_AND_ORGANIZATION ( #212, #315 ) ;
#314 = DIRECTION ( 'NONE',  ( 0.000000000000000000, 0.000000000000000000, 1.000000000000000000 ) ) ;
#315 = ORGANIZATION ( 'UNSPECIFIED', 'UNSPECIFIED', '' ) ;
#316 = DATE_AND_TIME ( #178, #162 ) ;
#317 = PLANE ( 'NONE',  #284 ) ;
#318 = APPROVAL_ROLE ( '' ) ;
#319 = DIRECTION ( 'NONE',  ( -1.000000000000000000, -0.000000000000000000, -0.000000000000000000 ) ) ;
#320 = AXIS2_PLACEMENT_3D ( 'NONE', #109, #224, #191 ) ;
#321 = EDGE_LOOP ( 'NONE', ( #206, #161, #177, #141 ) ) ;
#322 = ORIENTED_EDGE ( 'NONE', *, *, #126, .T. ) ;
#323 = EDGE_CURVE ( 'NONE', #148, #222, #11, .T. ) ;
#324 = VERTEX_POINT ( 'NONE', #89 ) ;
#325 = CIRCLE ( 'NONE', #40, 12.69999999999999929 ) ;
#326 = DIRECTION ( 'NONE',  ( 0.000000000000000000, 0.000000000000000000, 1.000000000000000000 ) ) ;
#327 = ADVANCED_FACE ( 'NONE', ( #146, #36 ), #201, .F. ) ;
#328 = CARTESIAN_POINT ( 'NONE',  ( 1.500000000000000888, 0.000000000000000000, 0.000000000000000000 ) ) ;
#329 = EDGE_CURVE ( 'NONE', #270, #20, #278, .T. ) ;
#330 = ORIENTED_EDGE ( 'NONE', *, *, #126, .F. ) ;
#331 = MECHANICAL_CONTEXT ( 'NONE', #122, 'mechanical' ) ;
#332 = CARTESIAN_POINT ( 'NONE',  ( 3.000000000000000000, 0.000000000000000000, 12.69999999999999929 ) ) ;
#333 = DIRECTION ( 'NONE',  ( 0.000000000000000000, 0.000000000000000000, 1.000000000000000000 ) ) ;
#334 = CARTESIAN_POINT ( 'NONE',  ( -1.614212418857619014, 0.000000000000000000, 0.000000000000000000 ) ) ;
#335 = PERSON_AND_ORGANIZATION ( #212, #315 ) ;
ENDSEC;
END-ISO-10303-21;
